Song name
# A B C D E F G H I J K L M N O P Q R S T U V W X Y Z

Misc Soundtrack - Bubba Ho-tep Theme tab

Bubba Ho-Tep
Tabbed by Dave "Primusfan" Neill

If you saw Bubba Ho-Tep, you heard that spaghetti western-esque song throughout
the movie but most notably, at the end of the movie (unless you were like me
and were sobbing uncontrollably from the extremely sad ending all the way home
from the theater):(


As usual, this was done by ear listening to the song while the credits rolled.
Feel free to leave feedback and suggestions. You really have to know how the
song sounds to play it. If you've never seen Bubba Ho-Tep, don't waste you're
time trying to play this...go out and buy Bubba Ho-Tep.:D

Intro: Play 4 times
E-0--x-0--0-x-0-------------|
B-0--x-0--0-x-0-------------|
G-0--x-0--0-x-0-------------|
D-2--x-2--2-x-2-------------|
A-2--x-2--2-x-2-------------|
E-0--x-0--0-x-0-------------|

The entire song structure is

  Em                                  C
E-0-0-x-0--0-x-0-|-0-0-x-0--0-x-0-|----------------|----------------|
B-0-0-x-0--0-x-0-|-0-0-x-0--0-x-0-|-1-1-x-1--1-x-1-|-1-1-x-1--1-x-1-|
G-0-0-x-0--0-x-0-|-0-0-x-0--0-x-0-|-0-0-x-0--0-x-0-|-0-0-x-0--0-x-0-|
D-2-2-x-2--2-x-2-|-2-2-x-2--2-x-2-|-2-2-x-2--2-x-2-|-2-2-x-2--2-x-2-|
A-2-2-x-2--2-x-2-|-2-2-x-2--2-x-2-|-3-3-x-3--3-x-3-|-3-3-x-3--3-x-3-|
E-0-0-x-0--0-x-0-|-0-0-x-0--0-x-0-|----------------|----------------|

  G                                 D
E-3-3-x-3--3-x-3-|-3-3-x-3--3-x-3-|-2-2-x-2--2-x-2-|-2-2-x-2--2-x-2-|
B-0-0-x-0--0-x-0-|-0-0-x-0--0-x-0-|-3-3-x-3--3-x-3-|-3-3-x-3--3-x-3-|
G-0-0-x-0--0-x-0-|-0-0-x-0--0-x-0-|-2-2-x-2--2-x-2-|-2-2-x-2--2-x-2-|
D-0-0-x-0--0-x-0-|-0-0-x-0--0-x-0-|-0-0-x-0--0-x-0-|-0-0-x-0--0-x-0-|
A-2-2-x-2--2-x-2-|-2-2-x-2--2-x-2-|----------------|----------------|
E-3-3-x-3--3-x-3-|-3-3-x-3--3-x-3-|----------------|----------------|

Now the lead part:

E----------|----------|----------|----------|------------------|
B----------|----------|----------|----------|------------------|
G----------|----------|-------4--|--4-4-----|------------------|
D--5-------|5-7-5-----|---5-7----|------7---|-7-5-4-2-0-2h4-5--|
A----------|----------|----------|----------|------------------|
E----------|----------|----------|----------|------------------|

E-----------|----------|-------------|------------------|
B-----------|----------|-------------|----------8-------|
G-----------|-------4--|-4-4-7-7-4---|---7-7--9---------|
D-5-5--7-7--|-5-5-7----|-----------7-|-/9---------------|
A-----------|----------|-------------|------------------|
E-----------|----------|-------------|------------------|

E------------|------7----|-7-7-10-7-------|----------------------|
B--8-8-10----|--8-10-----|---------10-----|-10-8-7--8-7h8p7------|
G------------|-----------|----------------|-----------------7----|
D------------|-----------|----------------|----------------------|
A------------|-----------|----------------|----------------------|
E------------|-----------|----------------|----------------------|


E---------------------------------------------------------------------------------------------|
B-----------------------------------------------------------------------------------10-12-12--|
G-7-9-------7------------------------------7-----9---7--9-9--/12-12-12-9-9--9-11-12-----------|
D-----9-10----10-9--------7-9-10--7--9--10---10-----------------------------------------------|
A------------------10--10---------------------------------------------------------------------|
E---------------------------------------------------------------------------------------------|

E---------------------------------------------------------------------------14-14-14-15-15-15--|
B-12-12-12-12/10-10-10-10/8-8-8-8/7---------/15----13-12-----------17-17-17--------------------|
G-----------------------------------9-11-12-----14--------9-11-12------------------------------|
D----------------------------------------------------------------------------------------------|
A----------------------------------------------------------------------------------------------|
E----------------------------------------------------------------------------------------------|

E-15-15-----------------------------------------------------------------------------------|
B-------15--------------------------------------------------------------------------------|
G----------17-16--16-16-17-19-17-16-16-16-16-16-16-16-14-14-14-14-14-14-14-14-14-14/16----|
D-----------------------------------------------------------------------------------------|
A-----------------------------------------------------------------------------------------|
E-----------------------------------------------------------------------------------------|

P.S. In the extreme case the lines get funky, just copy and paste this into Notepad.:)
Tap to rate this tab
# A B C D E F G H I J K L M N O P Q R S T U V W X Y Z