Song name
# A B C D E F G H I J K L M N O P Q R S T U V W X Y Z

Misc Soundtrack - Pirates Of The Caribbean Theme tab

Pirates of the Caribbean Theme

This tab was not made by me, i've found it on youtube:

http://www.youtube.com/watch?v=TQgE-TFXX50

Intro (Palm mute 5th Cord)

E--------|--------|--------|---------|
B--------|--------|--------|---------|
G--------|--------|--------|---------|
D--------|--------|--------|---------|
A-5-55-5-|-5-5555-|-5-55-5-|-5555----|
E--------|--------|--------|---------|


E----------|--------|-----------------------|-----------|---------|
B----------|--------|------------8----------|-----------|---------|
G-7--------|-77-7-9-|-10-10-10-----99-7-----|----7------|-77-7-9--|
D----7--10-|--------|--------------------10-|-10----7-10|---------|
A-5--------|--------|-----------------------|-----------|---------|
E----------|--------|-----------------------|-----------|---------|


E---------------|---------------|--------------------|------------|
B-------------8-|---------------|--------------------|----88-8-10-|
G-10-10-10------|-99-7----------|7-----------77-7-10-|------------|
D---------------|-----------10--|----7 --10----------|------------|   
A---------------|---------------|--------------------|------------|
E---------------|---------------|--------------------|------------|


E-------------------------|-------------|-------------------------|
B-11-11-10-8-10-----------|-----------8-|-10----------------------|
G-----------------7--7--9-|-10-10-------|----7-7-10--99-10-7--9---|
D-------------------------|-------------|-------------------------|
A-------------------------|-------------|-------------------------|
E-------------------------|-------------|-------------------------|

Now repeat the whole thing, except the intro-part. At the end the last notes are changed.

E-----------|--------|------|----------------------|
B-10--------|--------|------|----------8--10----6--|
G----7-7-10-|-99-7-6-|-77-9-|-10-10-10-------10---7|
D-----------|--------|------|----------------------|
A-----------|--------|------|----------------------|
E-----------|--------|------|----------------------|

E------|---------|------|-------|---------|
B------|-11--8---|------|-5-----|--6--6-8-|
G------|-------7-|------|-6-7---|-6-------|
D----7-|---------|----8-|-----5-|---------|
A------|---------|------|-------|---------|
E------|---------|------|-------|---------|

E---------|--------|------|------|-------|
B-10-10-10|--11--10|-8-8-8|--8-10|-------|
G-10-10-10|--10--10|-9-9-9|--9-9-|-------|
D---------|--------|------|------|-------|
A---------|--------|------|------|-------|
E---------|--------|------|------|-------|

E---------|-------|---------------------|
B-10-10-10|-11--10|-6/8/6--5------------|
G-10-10-10|-10--10|-5/7/5--5------------|
D---------|-------|---------------------|
A---------|-------|---------------------|
E---------|-------|---------------------|
|
E----------|-------------|---------|-------------|
B----------|--------8--10|-8-------|------8---10-|
G--7---7--9|-10----------|-----10-9|-10----------|
D--7-------|-------------|---------|-------------|
A----------|-------------|---------|-------------|
E----------|-------------|---------|-------------|

E-------|-----------|---------|-------|-------|
B-8----8|-10--8-----|---------|-------|-------|
G---10--|---------10|-9--10-9-|-7-9-5-|-7-7-9-|
D-------|-----------|---------|-------|-------|
A-------|-----------|---------|-------|-------|
E-------|-----------|---------|-------|-------|

E---------|---------|----------|--------|----|
B----8--10|-8------8|-10-8-----|--------|----|
G-10------|-----10--|--------10|-7--7--9|----|
D---------|---------|----------|--------|----|
A---------|---------|----------|--------|----|
E---------|---------|----------|--------|----|

E---------|--------|--------|---------|-----|
B----8--10|-11---8-|----8---|---------|-----|
G-10------|-----7--|-10---9-|-7--9--6-|-----|
D---------|--------|--------|---------|-----|
A---------|--------|--------|---------|-----|
E---------|--------|--------|---------|-----|

*
E-----|----|----------|------|--|--|-----|-----|
B--10-|-11-|-10-10-10-|-10-8-|8-|6-|-565-|-----|
G--10-|-10-|-10-10-10-|-10-9-|9-|5-|-555-|7----|
D-----|----|----------|------|--|--|-----|--7--|
A-----|----|----------|------|--|--|-----|-----|
E-----|----|----------|------|--|--|-----|-----|

Repeat the previous part.*

*
E--------|-------------|-------------|-------------|
B--------|----10-------|---11--------|---10-10-13--|
G----9-10|-10---9-10---|-10---9-10---|-10-10-10----|
D-12-----|-----12------|-------12----|-------------|
A--------|-------------|-------------|-------------|
E--------|-------------|-------------|-------------|

E-----------|---|---|----|-------||
B-10--8-----|-8-|-6-|-565|-------||
G-10--9-----|-9-|-5-|-555|-7-----||
D-----------|---|---|----|----7--||
A-----------|---|---|----|-------||
E-----------|---|---|----|-------||

Repeat the last part.* 


Tap to rate this tab
 
# A B C D E F G H I J K L M N O P Q R S T U V W X Y Z