Guitaretab - guitar tabs
Song name
# A B C D E F G H I J K L M N O P Q R S T U V W X Y Z

Misc Soundtrack - Fahrenheit 9 11 Theme tab

Author/Artist: Jeff Gibbs
Title: Theme to Fahrenheit 9/11
Transcribed by: JoŽl Lignier
Email: jlignier@hotmail.com

Ok you are going to need a capo on the 3rd fret for this one as well as tuning
high e to B.


B|------0-------0-------0-------0-|
B|--0-------0-------0-------0-----|
G|--------------------------------|  Intro
D|--------------------------------|
A|--------------------------------|
E|--------------------------------|


B|------0-------0-------0-------0-|------0-------0-------0-------0-|
B|--0-------0-------0-------0-----|--0-------0-------0-------0-----|
G|--7---------9-----6---------7---|--2---------4-----0-------------|
D|--------------------------------|--------------------------------|
A|--------------------------------|--------------------------------|
E|--------------------------------|--------------------------------|


B|------0-------0-------0-------0-|------0-------0-------0-------0-|
B|--0-------0-------0-------0-----|--0-------0-------0-------0-----|
G|--------------------------------|----2---------------0-----------|
D|--------------------------------|----------4---------------2-----|
A|--------------------------------|--------------------------------|
E|--------------------------------|--------------------------------|


B|------0-------0-------0-------0-|
B|--0-------0-------0-------0-----|
G|--------------------4-----7-----|
D|----4-----7---------------------|
A|--------------------------------|
E|--------------------------------|


B|------0-------0-------0-------0-|------0-------0-------0-------0-|
B|--0-------0-------0-------0-----|--0-------0-------0-------0-----|
G|--7---------9-----6---------7---|--2---------4-----0-------------|
D|--------------------------------|--------------------------------|
A|--------------------------------|--------------------------------|
E|--------------------------------|--------------------------------|

[ Tab from: http://www.guitaretab.com/m/misc-soundtrack/51968.html ]
B|------0-------0-------0-------0-|------0-------0-------0-------0-|
B|--0-------0-------0-------0-----|--0-------0-------0-------0-----|
G|--------------------------------|----2---------------0-----------|
D|--------------------------------|----------4---------------2-----|
A|--------------------------------|--------------------------------|
E|--------------------------------|--------------------------------|


B|------0-------0-------0-------0-|
B|--0-------0-------0-------0-----|
G|--------------------4-----7-----|
D|----4-----7---------------------|
A|--------------------------------|
E|--------------------------------|
 

B|------0-------0-------0-------0-|------0-------0-------0-------0-|
B|--0-------0-------0-------0-----|--0-------0-------0-------0-----|
G|--7---------9-----6--------7----|--------------------------------|
D|--------------------------------|--------------------------------|
A|--------------------------------|------------5-----3-----2---3---|
E|--------------------------------|--0---------------------------0-|


B|------0-------0-------0-------0-|------0-------0-------0-------0-|
B|--0-------0-------0-------0-----|--0-------0-------0-------0-----|
G|--------------------------------|--------------------------------|
D|--------------------------------|--------------------------------|
A|----5-----3-----5---3---5-------|--------------------------------|
E|--------------------------0-----|----5-----10--------5-----0-----|

 
B|------0-------0-------0-------0-|------0-------0-------0-------0-|
B|--0-------0-------0-------0-----|--0-------0-------0-------0-----|
G|--------------------------------|--------------------------------|
D|--------------------------------|----7-----5-----4---5---7-------|
A|--------------------------------|--------------------------------|
E|----5-----10--------5-----0-----|--------------------------0-----|


B|------0-------0-------0-------0-|------0-------0-------0-------0-|
B|--0-------0-------0-------0-----|--0-------0-------0-------0-----|
G|--------------------------------|--------------------------------|
D|----7-----5-----4---5---7-------|----7-----5-----4---5---7-------|
A|--------------------------------|--------------------------------|
E|--------------------------0-----|--------------------------0-----|
Related for Fahrenheit 9 11 Theme tab