Song name
# A B C D E F G H I J K L M N O P Q R S T U V W X Y Z

Misc Soundtrack - Castle Theme tab

The sad music from the Australian film "The Castle" (directed by Rob Sitch).

e|-------------------------------------------------|
b|-------------------------------------------------|
g|-------------------------------------------------|
D|-----4-5-----4-5-4-------------------------------|
A|-5-7--------------------7--5--7------3-----------|
E|-------------------------------------------------|

e|-------------------------------------------------|
b|-------------------------------------------------|
g|-------------------------------------------------|
D|-----4-5-----7-5-4------4-3----------------------|
A|-5-7------------------------7-------3------------|
E|-------------------------------------------------|

e|-------------------------------------------------|
b|-------------------------------------------------|
g|-------------------------------------------------|
D|-----4-5-----4-5-4-------------------------------|
A|-5-7--------------------7--5--7------3-----------|
E|-------------------------------------------------|

e|-------------------------------------------------|
b|-------------------------------------------------|
g|-------------------------------------------------|
D|-----4-5-----7-5-4---------3-4----------4--------|
A|-5-7--------------------5------7---3--7---5------|
E|-------------------------------------------------|
Tap to rate this tab
# A B C D E F G H I J K L M N O P Q R S T U V W X Y Z