Song name
# A B C D E F G H I J K L M N O P Q R S T U V W X Y Z

Misc Soundtrack - Kill Bill Theme tab

This has to be one of the best soundtracks ever and I couldn't find the tab
for it so I thought id do it myself. I haven't managed too get the whole thing
but Im working on the rest.

1st guitar
e--------------------------------------------------------|
B--------------------------------------------------------|
G--------------------------------------------------------|
D--------------------------------------------------------|
A-----5h7------------------------5h7---------------------|
E-----------0-0-0-0-0-0-0-0-0-0-----0-0-0-0-0-0-0-0-0-0--| play this a few times


e------3-------2-------------------------------------------------------------|
B------0-------2-------------------------------------------------------------|
G------0-------2-------------------------------------------------------------|
D------0--------------2------------------------------------------------------|
A------2--------------2---------------------------------5h7------------------|
E------3----------------------0-0-0-0-0-0-0-0-0-----------0-0-0-0-0-0-0-0-0--|

2nd guitar

e----------------------------------------------------------------------------|
B----12------12---10-8-------------------------------------------------------|
G----------------------------14b----14--12--11--9--9--12---16--14------------|
D----------------------------------------------------------------------------|
A----------------------------------------------------------------------------|
E----------------------------------------------------------------------------|

e---------------------------------------------------------------------------|
B----12------12---10-8------------------------------------------------------|
G----------------------------14b----14--12--11-9---9--12--------------------|
D-----------------------------------------------------------------12----11--|
A---------------------------------------------------------------------------|
E---------------------------------------------------------------------------|


ill try and update this tab when i work out the rest, its my first tab so im not sure if 
100% but it'll do me
Tap to rate this tab
# A B C D E F G H I J K L M N O P Q R S T U V W X Y Z