Song name
# A B C D E F G H I J K L M N O P Q R S T U V W X Y Z

Misc Soundtrack - Silent Hill - Room Of Angel tab

------------------------------------------------------------------------------
	      Theme from Silent Hill 4 Intro - Room of Angel
------------------------------------------------------------------------------
Tabbed by:ascguitarist
Email:dptgarcia@aol.com

(Played on piano but transposed to guitar)
Tuning: EADGBe

  Intro- Heavy reverb and delay
e|--------------------------------------------------------------------------|
B|-1---4---1---6---1---4----------------------------------------------------|
G|--------------------------------------------------------------------------|
D|--------------------------------------------------------------------------|
A|--------------------------------------------------------------------------|
E|--------------------------------------------------------------------------|

  Pre verse
e|--------------------------------------------------------------------------|
B|--------------------------------------------------------------------------|
G|-----5-------5-------5-------5-------5-------5-------5-------5------------|
D|---5---5---5---5---5---5---5---5---5---5---5---5---5---5---5---5----------|
A|-3-------3-------3-------3-------3-------3-------3-------3----------------|
E|--------------------------------------------------------------------------|
  Verse
e|--------------------------------------------------------------------------|
B|--------------------------------------------------------------------------|
G|-----5-------5-------5-------5-------5-------5-------5-------5-------3----|
D|---5---5---5---5---5---5---5---5---5---5---5---5---5---5---5---5---3---3--|
A|-3-------3-------3-------3-------3-------3-------3-------3-------1--------|
E|--------------------------------------------------------------------------|

 Verse continued
e|--------------------------------------------------------------------------|
B|--------------------------------------------------------------------------|
G|-----3-------3-------3----------------------------------------------------|
D|---3---3---3---3---3---3-----5-------5-------5-------5--------------------|
A|-1-------1-------1---------5---5---5---5---5---5---5---5------------------|
E|-------------------------3-------3-------3-------3------------------------|

  Chorus
e|---------------------------------------------------------------------------
B|--------------------------------------------------------------------------|
G|-----5-------5-------3-------3-----------------------5-------5------------|
D|---5---5---5---5---3---3---3---3-----5-------5-----5---5---5---5----------|
A|-3-------3-------1-------1---------5---5---5---5-3-------3----------------|
E|---------------------------------3-------3--------------------------------|

  Chorus 2
e|--------------------------------------------------------------------------|
B|--------------------------------------------------------------------------|
G|-----8-------8-------6-------6-----------------------8-------8------------|
D|---8---8---8---8---6---6---6---6-----8-------8-----8---8---8---8----------|
A|-6-------6-------4-------4---------8---8---8---8-6-------6----------------|
E|---------------------------------6-------6--------------------------------|

  Outro
e|--------------------------------------------------------------------------|
B|--------------------------------------------------------------------------|
G|-----8-------8-------8-------8--------------------------------------------|
D|---8---8---8---8---8---8---8---8------------------------------------------|
A|-6-------6-------6-------6------------------------------------------------|
E|--------------------------------------------------------------------------|

Order:
Intro x1
Pre verse x1
Verse x2
Chorus x2
Pre verse x1
Verse x2
Chorus x 4
Pre verse x1
Chorus x4
Outro x5
Tap to rate this tab
# A B C D E F G H I J K L M N O P Q R S T U V W X Y Z