Song name
# A B C D E F G H I J K L M N O P Q R S T U V W X Y Z

Misc Soundtrack - Road To Perdition Theme tab

Road to Perdition - Perdition

Tabd by Oscar.
this is a correct version on the piano part in the movie,
it's very beautiful.

Standard tuning.


e-----------------------------------------------------------|
B-----------------------------------------------------------|
G-----------------------------------------------------------|
D--7---7---12----------14---15------------------------------|
A-----------------------------------------------------------|
E-----------------------------------------------------------|

e-----------------------------------------------------------|
B-----------------------------------------------------------|
G-----------------------------------------------------------|
D--7---7---12----------14---19------------------------------|
A-----------------------------------------------------------|
E-----------------------------------------------------------|

e-----------------------------------------------------------|
B-----------------------------------------------------------|
G-----12--14--16--17----17--16--12-----16--17----17--16--12-|
D-----------------------------------------------------------|
A-----------------------------------------------------------|
E-----------------------------------------------------------|

e-----------------------------------------------------------|
B-----------------------------------------------------------|
G------16--17-----------------------------------------------|
D-----------------------------------------------------------|
A-----------------------------------------------------------|
E-----------------------------------------------------------|

e-----------------------------------------------------------|
B-----10--10---18------10--10---17------18-17-15------13----|
G-----------------------------------------------------------|
D-----------------------------------------------------------|
A-----------------------------------------------------------|
E-----------------------------------------------------------|

e-------------------13-------13----12-------12-15h17-22-----|
B---10--------10----18-------18----17-------17--------------|
G-----------------------------------------------------------|
D-----------------------------------------------------------|
A-----------------------------------------------------------|
E-----------------------------------------------------------|

e--------10--8--6-----6-----8-10-13-12----------------------|
B--------------------------------------10-10----------------|
G-----------------------------------------------------------|
D-----------------------------------------------------------|
A-----------------------------------------------------------|
E-----------------------------------------------------------|

e-----------------------------------------------------------|
B-----------------------------------------------------------|
G-----------------------------------------------------------|
D-----7-7--12-----14-15------7-7--12-12----14--19-----------|
A-----------------------------------------------------------|
E-----------------------------------------------------------|

e-----------------------------------------------------------|
B-----------------------------------------------------------|
G-----------------------------------------------------------|
D--19-17-15-----1515-14-12-11-14-12---------12---12---------|
A-------------------------------------12--------------------|
E-----------------------------------------------------------|


Listen to the song and play along =)
Tap to rate this tab
# A B C D E F G H I J K L M N O P Q R S T U V W X Y Z