Song name
# A B C D E F G H I J K L M N O P Q R S T U V W X Y Z

Misc Soundtrack - Rocky Theme tab

Rocky 1 theme
Tabbed by Kyle O.

This is the song that plays when the fight is over in Rocky 1 after Rocky and Apollo
Creed say there aint gonna be no rematch

standard tuning

|--------------------------------------------------------------|
|--------------------------------------------------------------|
|--------------------------------------------------------------|
|-------2-3-2-3-2-3-2-0---------0-2-3-2-3--2-3-2-0--5-3-2-2----|
|--0-2-3----------------3-0-2--3-------------------3--------0--|
|--------------------------------------------------------------|

|------------------------------------------|
|------------------------------------------|
|------------------------------------------|
|-7-7--0-2-3-2-0-------5-0-2-3-2-0---------|
|----------------3-2-0-------------3-2-0~--|
|------------------------------------------|

sounds right to me. enjoy
Tap to rate this tab
# A B C D E F G H I J K L M N O P Q R S T U V W X Y Z