Song name
# A B C D E F G H I J K L M N O P Q R S T U V W X Y Z

Misc Soundtrack - Get Carter Theme tab

---------------------------------------------------------
			     Get Carter - Roy Bud
-------------------------------------------------------------------------------
Tabbed by: Penno
Email:alexpenno@aol.com

Tuning: Normal

I add some vibratos and hammer-ons pull offs etc but i just improvise them so theres no 
in putting them in, just figure out for yourselfs where they go

Bass Line
e|---------------------------------------------------------------------------|
B|---------------------------------------------------------------------------|
G|---------------------------------------------------------------------------|
D|---------------------------------------------------------------------------|
A|---------------------------------------------------------------------------|
E|-----0----0--3--4--5------0--5--0--4--0--3---------------------------------|

Keyboard tune played over Bass line
e|--------------------------------0------------------------------------------|
B|-0--3-----2-------0--3-------------2---------0-----------------------------|
G|-------------2----------------------2---------0-----2----------------------|
D|------------------------------------------------------2----0--2------------|
A|---------------------------------------------------------------------------|
E|---------------------------------------------------------------------------|

PLease feel free to email me comments or suggestions or insults but no spam please
Tap to rate this tab
 
# A B C D E F G H I J K L M N O P Q R S T U V W X Y Z