Song name
# A B C D E F G H I J K L M N O P Q R S T U V W X Y Z

Misc Soundtrack - Charlies Angels Theme tab

                           Charlie's Angels Theme

Tabbed by:mercedes_gurl05
Email:

Tuning: standard
  this is actually more of a modified, hard core version, but i think it's pretty fun. enjoy!

e|-------------------------------------------------------------------------|
B|-------------------------------------------------------------------------|
G|-------------------------------------------------------------------------|
D|-2-2-2-3-2-2-2-2-2-2-0-0-2/5-5-3-3-2-2-2-3-2-2-2-2-2-2-3-0-2-3-5---------|
A|-0-0-0-0-0-0-0-0-0-0-0-0-0---0-0-0-0-0-0-0-0-0-0-0-0-0-0-0-0-0-0---------|
E|-------------------------------------------------------------------------|

  continued...
e|-------------------------------------------------------------------------|
B|-------------------------------------------------------------------------|
G|--------------------------------------------------------------------------
D|-7-7-7-8-7-7-7-7-7-7-5-5-7/10-10-8-8-7-7-7-8-7-7-7-7-7-7-7-7-7-7-7-7-----|
A|-5-5-5-5-5-5-5-5-5-5-5-5-5----5--5-5-5-5-5-5-5-5-5-5-5-5-5-5-5-5-5-5-----|
E|-------------------------------------------------------------------------|

  then just repeat the whole thing until you're satisfied. hope you like!
 
| /  slide up
| \  slide down
| h  hammer-on
| p  pull-off
| ~  vibrato
| +  harmonic
| x  Mute note
============================================================================
Tap to rate this tab
# A B C D E F G H I J K L M N O P Q R S T U V W X Y Z