Song name
# A B C D E F G H I J K L M N O P Q R S T U V W X Y Z

Misc Soundtrack - The Crow - Eric Dravens Roof Top tab

---------------------------------------------------------------------|
---------------------------------------------------------------------|
-----14^-14~~~-12~~ 11--14--9-~~-11--14--7~~-14~~-5~~-9~~-~~---------|
---------------------------------------------------------------------|
---------------------------------------------------------------------|
---------------------------------------------------------------------|

--0-0-3-/0-0-0-5/0-0-0-5/0-0-0-7/0-0-0-8/0-0-0-7/0-0-0-5/0-0-0-3-0---|
---------------------------------------------------------------------|
---------------------------------------------------------------------|
---------------------------------------------------------------------|
---------------------------------------------------------------------|
---------------------------------------------------------------------|
play this riff 2 times
---------------------------------------------------------------------|
---------------------------------------------------------------------|
---5-----5--7-----7--9----9--9---------------------------------------|
---5-----5--7-----7--9----9--9---------------------------------------|
---3-----3--5-----5--7----7--7---------------------------------------|
---------------------------------------------------------------------|
Tap to rate this tab
# A B C D E F G H I J K L M N O P Q R S T U V W X Y Z