Guitaretab - guitar tabs
Song name
# A B C D E F G H I J K L M N O P Q R S T U V W X Y Z

Misc Soundtrack - Kill Bill - The Whistling Song tab

I've used Ultimate guitar for, oh, a good 100 tabs, but never
submitted one. Just got the ear and I hope its a good one!
I'll be able to see how good my ear is by the ratings I getfor it.

The Whistling Song
Kill Bill
Tabbed By: Tim Rooker
[ Tab from: ]
E  0----0-0-----------------0-0-----0-0----------------------|
B  --3------3---3-1--3-3-1------3-3-----3---3-3--1-1--3-3--1-|
G  ----------------------------------------------------------|
D  ----------------------------------------------------------|
A  ----------------------------------------------------------|
E  ----------------------------------------------------------|

E  ------------------------------1--0-0---------------------|
B  3s1--3-4--3s1--3-4--3s1--3-4-----------------------------|
G  ---------------------------------------------------------|
D  ---------------------------------------------------------|
A  ---------------------------------------------------------|
E  ---------------------------------------------------------|


By the way, the whistling song is where Elle Driver is walking
down the corridor disguised as a nurse, early on in Kill Bill
volume one.
Related for Kill Bill - The Whistling Song tab