Song name
# A B C D E F G H I J K L M N O P Q R S T U V W X Y Z

Misc Soundtrack - Wallace And Gromit - Wrong Trousers tab

Wallace And Gromit/ Wrong Trousers Tab by Misc Soundtrack, www.Ultimate-Guitar.Com

Tuning: half step down

#This is in the beginning of the movie#

                                 |            Part 1              |
e--------------------------------|--10-----10-12~~10--------------|
B--13--11-10--13--11-10--13------|-----13------------13-11-10~~~--|
G---------------------------12~~-|-------------------------------o|
D--------------------------------|-------------------------------o|
A--------------------------------|--------------------------------|
E--------------------------------|--------------------------------|

|          Part 2           |
e--10-----10-12~~-10-12-13/-|-----12-----------------------|
B-----13--------------------|--13----13-12-13-9-12-8-9-6-8-|
G---------------------------|------------------------------|
D---------------------------|------------------------------|
A---------------------------|------------------------------|
E---------------------------|------------------------------|

e-------------------|
B--8-8-8-8-8--------|
G--7-7-7-7-7--------|
D--6-6-6-6-6--------|
A--7-7-7-7-7--------|
E--0-0-0-0-0--------|

Notation used:
~-vibrato
/-slide
Tap to rate this tab
 
# A B C D E F G H I J K L M N O P Q R S T U V W X Y Z