Song name
# A B C D E F G H I J K L M N O P Q R S T U V W X Y Z

Misc Soundtrack - Gremlins Theme tab

Pulled this totally out of my ace. But it sounds right. Enjoy!

e|-12-12-12-12-12-11--12-12-12-12-12-11--9-9-9-9-11-9-------------|
B|-----------------------------------------------------14-12-11---|
G|----------------------------------------------------------------|x2
D|----------------------------------------------------------------|
A|----------------------------------------------------------------|
E|----------------------------------------------------------------|

           
e|----------------------------------------------------------------|
B|----------------------------------------------------------------|
G|----------------------------------------------------------------|
D|-12-10-12-12-12-10----10-12-12-10----10-12-10-12-14-12-10-9-----|
A|-------------------12-------------12----------------------------|
E|----------------------------------------------------------------|
then repeat from top. Easy enough. Entertain the kiddies or make the gf bored.

Comments are welcome.
Now go shoot pencils with a paperclip and rubber band!

-Steve-
Tap to rate this tab
 
# A B C D E F G H I J K L M N O P Q R S T U V W X Y Z