Song name
# A B C D E F G H I J K L M N O P Q R S T U V W X Y Z

Misc Soundtrack - The Village Theme tab

e|------------------------|--------------------|
B|---------3---4---3------|-------3---4---3----|
G|------3--------------3--|----3-------------3-|
D|---5--------------------|-5------------------|
A|------------------------|--------------------|
E|------------------------|--------------------|


some part the sound changes to this:

e|------------------------|--------------------|
B|---------5---6---5------|-------5---6---5----|
G|------5--------------5--|----5-------------5-|
D|---7--------------------|-7------------------|
A|------------------------|--------------------|
E|------------------------|--------------------|

i caught up the sound while messing around with my guitar and found out that this tab is
really good for beginners to practice with....enjoy
Tap to rate this tab
 
# A B C D E F G H I J K L M N O P Q R S T U V W X Y Z