Song name
# A B C D E F G H I J K L M N O P Q R S T U V W X Y Z

Misc Soundtrack - Shaun Of The Dead Theme tab

Tabbed by:Emma Knight
Email:

Tuning:EADGBE

e|----3----5-3-5---3---5-3-5---3---5-3-5---3-----5-3-5-----------------------|
B|-5-----5-------5---5-------5---5-------5----5------------------------------|
G|---------------------------------------------------------------------------|
D|---------------------------------------------------------------------------|
A|---------------------------------------------------------------------------|
E|---------------------------------------------------------------------------|

e|--7-7-7-5-7-8-7-0-7-7-7-5-3-5-0-0-7-7-7-5-7-8-7-0-7-7-7-5-3-5-0-------------|
B|----------------------------------------------------------------------------|
G|----------------------------------------------------------------------------|
D|----------------------------------------------------------------------------|
A|----------------------------------------------------------------------------|
E|----------------------------------------------------------------------------|

e|-7-5-3-2-7-5-3-0-0-7-7-7-5-7-8-7-0-7-7-7-5-3-5-0-0-7-7-7-5-7-8-7-0----------|
B|----------------------------------------------------------------------------|
G|----------------------------------------------------------------------------|
D|----------------------------------------------------------------------------|
A|----------------------------------------------------------------------------|
E|----------------------------------------------------------------------------|

e|-0-7-7-7-5-3-5-0-7-5-3-2-7-5-3-0-7-5-3-2-7-5-3-3---------3------------------|
B|-------------------------------------------------5-5-3-5---5-5-3-5----------|
G|----------------------------------------------------------------------------|
D|----------------------------------------------------------------------------|
A|----------------------------------------------------------------------------|
E|----------------------------------------------------------------------------|

e|-3----------3--------------------------------------------------------------|
b|---5-5-3-5-----------------------------------------------------------------|
G|---------------------------------------------------------------------------|
D|---------------------------------------------------------------------------|
A|---------------------------------------------------------------------------|
E|---------------------------------------------------------------------------|
Tap to rate this tab
 
# A B C D E F G H I J K L M N O P Q R S T U V W X Y Z