Song name
# A B C D E F G H I J K L M N O P Q R S T U V W X Y Z

Misc Soundtrack - The Crow - Inferno tab

Help us improve GuitareTab! Take a short survey!
Misc Soundtrack
The Crow - Inferno 
The Crow Soundtrack
Tuning: Standard
Transcribed by Soch H.

Theme:
|-----------------------------------------------------------|
|---------10b12---10~--8--7~--10------------7~--8-----------|
|--------x-----------------------9~-------x-------7~--------|
|------x--------------------------------x-------------------|
|----x--------------------------------x---------------------|
|-----------------------------------------------------------|
    rake                              rake

|---------------------|
|-8b10----------------|
|---------5---7s9~----|
|---------------------|
|---------------------|
|---------------------|

|-0-0-3-0---0-5-0---0-5-0---0-7-0---0-8-0---0-7-0---0-5-0---0-3----|
|---------------------------------------------------------------0--|
|---------------------------------------------------------------0--|
|------------------------------------------------------------------|
|------------------------------------------------------------------|
|------------------------------------------------------------------|

|-------------------------------------------------------------------|
|-------------------------------------------------------------------|
|-5----5s7----7s9---------------5------5s7-7-7--7-7--7s9--9-9-9-----|
|-5----5s7----7s9---------------5------5s7-7-7--7-7--7s9--9-9-9-----|
|-3--3-3s5--5-5s7-----------7\--3--3-3-3s5-5-5--5-5--5s7--7-7-7-----|
|------------------0-0-0-0------------------------------------------|

|---------------------------------10tr12---12tr15------------------|
|-----------------------8tr10s12------------------15---------------|
|----------------7tr9----------------------------------------------|
|---------7tr9--------------------------------------------0--------|
|-7tr10-----------------------------------------------x\--0--------|
|-----------------------------------------------------x\--0--------|
                                                  mess w/ whammy bar here

(2:42)
|-------------------------------------------------------------------|
|-------------------------------------------------------------------|
|-------------------4------------9----------------------------------|
|-------------------4------------9----------------------------------|
|-2~--4~--5~\--2~---2---4~--5~---7----------------------------------|
|-------------------------------------------------------------------|

|-------------------------------------------------------------------|
|-------------------------------------------------------------------|
|-----------------7--------------------------------------------9----|
|-----------------7--------------------------------------------9----|
|-2~---2-4~---4-4-5---2~-----0-2-0--2p0h2p0h2~--2-4~---4-5~--5-7----|
|-------------------------------------------------------------------|

(3:14)
|-------------------------------------------------------|
|-------------------------------------------------------|
|----------------2s4~--4~-4~----------------------------|
|--------------------------------5~-5~-5~----7~-7~-7~---|
|-2~---4~---5~------------------------------------------|
|-------------------------------------------------------|

|-----------------------|
|-----------------------|
|-----------------------|
|-7\--------------------|
|---------------2s4~----|
|-----------------------|

(4:17)
|--------------------------------------------------|
|--------------------------------------------------|
|-4-----6-----7-----4-----4----4-4--6----7-----9---|
|-4-----6-----7-----4-----4----4-4--6----7-----9---|
|-2-----4-----5-----2-----2----2-2--4----5-----7---|
|---------------------------x\---------------------|

|--------------------------|
|--------------------------|
|-4-----6------4~----------|
|-4-----6------------------|
|-2-----4-----------4-4----|
|--------------------------|

Legend:
b  - Bend
p  - Pull-off
h  - Hammeron
s  - Slide
~  - Vibrato
tr - Trill (series of hammerons and pulloffs)
x\ - Pick Slide
Related for The Crow - Inferno tab