Song name
# A B C D E F G H I J K L M N O P Q R S T U V W X Y Z

Misc Soundtrack - Rocky - Gonna Fly Now tab

Misc Soundtrack
Rocky - Gonna Fly Now
Tuning: Standard
Transcribed by Soch Hean

Intro:
|----------------------------------------------------------------|
|--------------------------------------------------------8-------|
|-------------------------9--------------9-9--9-9-9--9-9---9-9-9-|
|-10--10--10-10-10--10-10---10-10-10-----------------------------|
|----------------------------------------------------------------|
|----------------------------------------------------------------|

|---------------------------|
|---------------------------|
|-7--7-7-7--7-9-9-7---------|
|--------------------10-9---|
|---------------------------|
|---------------------------|

Main Theme:
|----------------------------------------------------------------|
|-----------------12---------------------------12----------------|
|----12--14----14-----------------12--14----14-------------------|
|-14-----------------14--------14-------------------14-----------|
|----------------------------------------------------------------|
|----------------------------------------------------------------|

|------------------------------------------------------|
|------------------------------------------------------|
|------------------9-9---------------------------------|
|-12-10-12---10-12--------10-10-9--9------------10--9--|
|------------------------------------12-12-10----------|
|------------------------------------------------------|

|----------------------------------------------------------------|
|-----------------12---------------------------12----------------|
|----12--14----14-----------------12--14----14-------------------|
|-14-----------------14--------14-------------------14-----------|
|----------------------------------------------------------------|
|----------------------------------------------------------------|

|-------------------------------------------------13--12-|
|-------------------------13-13-12--12-------------------|
|------------------9-9-----------------14-14-12----------|
|-12-10-12---10-12---------------------------------------|
|--------------------------------------------------------|
|--------------------------------------------------------|

Guitar Solo: (1:07)
|-----------------------------------------------------------------------|
|-15-13-15-13-15-15-[15]b17-15~\---------13-15b17-15b17---15b17rp13-15--|
|----------------------------------2s=14--------------------------------|
|-----------------------------------------------------------------------|
|-----------------------------------------------------------------------|
|-----------------------------------------------------------------------|

|--------------------------------------------------------------------|
|-15-13-13~--15b18--15~--------------------------------12-13--15-13--|
|-------------------------12s14-14-12~-12~----12-12-14---------------|
|------------------------------------------14------------------------|
|--------------------------------------------------------------------|
|--------------------------------------------------------------------|

|------------------------------------------------------------------|
|-15b17=-15b17--15b17--15pb17rp13----13--13h15p13----13-15---------|
|---------------------------------14--------------14---------14-14-|
|------------------------------------------------------------------|
|------------------------------------------------------------------|
|------------------------------------------------------------------|

|------------------------------------------------------------------|
|-13h15p13----13----------13h15p13----13---13-15p13----13-15p13----|
|----------14-------14-14----------14---------------14----------14-|
|------------------------------------------------------------------|
|------------------------------------------------------------------|
|------------------------------------------------------------------|

|-----------------------------------------------------17------------|
|-13-15p13----13\--17--20-20b22~--20--20-17-20-20=b22----20pb22r-20-|
|----------14-------------------------------------------------------|
|-------------------------------------------------------------------|
|-------------------------------------------------------------------|
|-------------------------------------------------------------------|

|----------------------------------------------------------------|
|-17-17---------------------17-----------------------------------|
|-------19-17-19b21--19b21----17-19----17~\----------------------|
|-----------------------------------19---------------------------|
|----------------------------------------------------------------|
|----------------------------------------------------------------|

Repeat Main Theme

Legend:
b - bend
r - release
pb - prebend
h - hammeron
p - pulloff
s - slide
[#] - pinch harmonic
Tap to rate this tab
# A B C D E F G H I J K L M N O P Q R S T U V W X Y Z