Song name
# A B C D E F G H I J K L M N O P Q R S T U V W X Y Z

Misc Soundtrack - 28 Days Later - No More Films tab

-------------------------------------------------------------------------------
			NO MORE FILMS - 28 Days Later
-------------------------------------------------------------------------------
Tabbed by: Rafa88offspring	
Email: rafa88offspring@hotmail.com

Tuning: Standard

This is a song from the movie 28 days later, if you want to discuss the 
track, the tablature or whatever just e-mail me or add me on msn

Guitar 1
e|-9----9----11----11----9----9----11----11-----|
B|---10---10----10----10---10---10----10----10--|
G|----------------------------------------------|
D|----------------------------------------------|
A|----------------------------------------------|
E|----------------------------------------------|

e|-----------------------------------------------|
B|-12----12----12----12----14----14----13----13--|
G|----13----13----13----13----13----13----13-----|
D|-----------------------------------------------|
A|-----------------------------------------------|
E|-----------------------------------------------|

Guitar 2
Strums chord A during the first part of guitar 1
and then strums chord G#m during the second


| /  slide up
| \  slide down
| h  hammer-on
| p  pull-off
| ~  vibrato
| +  harmonic
| x  Mute note
===============================================================================
Tap to rate this tab
# A B C D E F G H I J K L M N O P Q R S T U V W X Y Z