Song name
# A B C D E F G H I J K L M N O P Q R S T U V W X Y Z

Misc Soundtrack - Pirates Of The Carribean - Hes A Pirate tab

Song: He's A Pirate

Tabbed By: Revlin
7/7/06

Tune down a half step.

Pirates Of The Carribean is a kick ass movie. This is basically the main theme. You can 
some hammers and pulls in places to make it sound better. Sounds good even if you don't 
tune down a half step. Enjoy!


Part 1
eb|------------------------------------------------------------------------------|
Bb|------------------------------------------------------------------------------|
Gb|---------------------------------------------------------------3--44-3---3----|
Db|-----3-44-46-33-----------------3-44-46-33--------------4-66-4---------6------|
Ab|--66-------------64-46-----4-66------------646-----4-66--------------------6--|
Eb|-------------------------6-----------------------6----------------------------|

eb|------------------------------------|
Bb|------------------------------------|
Gb|-----------3------------------------|
Db|----3-44-6--------4-33-4----3-------|
Ab|--6----------6--6--------6-------4--|
Eb|-------------------------------6----|x2

Part 2
eb|-------------------------------------------------------|
Bb|-------------------------------------------------------|
Gb|--3-------------------------3---------4----------------|
Db|---------4-33-------3-43-4-----4--------4---------3----|
Ab|----6--6------64-66--------------61-------62---66---6--|
Eb|-------------------------------------------------------|

Part 3
eb|-------------------------------------------------------|
Bb|-------------------------------------------------------|
Gb|-------------------------------------------------------|
Db|--8-8-8-9p8---6-6-6-6h8---8-8-8-9p8---6-4-3-------3-4~-|
Ab|--------------------------------------------6---6------|
Eb|-------------------------------------------------------|

eb|-------------------------------------------------------------|
Bb|-------------------------------------------------------------|
Gb|-------------------------------------------------------------|
Db|--4-8-6-3--4-6-8-6------4-6--8---6-4-3-4--------3-------3-4~-|
Ab|--------------------6-6------------------4--6-----46--6------|
Eb|-------------------------------------------------------------|

eb|-------------------------------------------------------|
Bb|-------------------------------------------------------|
Gb|----------------------------------4--------------------|
Db|--3-4-6-4-6--8-6-4-------3--4-6-8----6--4-66-33-44-----|
Ab|-------------------6---6------------6---------------6--|
Eb|-------------------------------------------------------|

Part 4
eb|-------------------------------------------------------------------------------|
Bb|-------------------------------------------------------------------------------|
Gb|---------------------------------------------------------6---------------------|
Db|--8--9--888-86---6--4--343-3-----------8-------9------88---86---6--4--34-31~~--|
Ab|-----------------------------6--689-------689----689---------------------------|
Eb|-------------------------------------------------------------------------------|


Comments, questions, e-mail me at SoftAsylum@gmail.com
Tap to rate this tab
# A B C D E F G H I J K L M N O P Q R S T U V W X Y Z