Song name
# A B C D E F G H I J K L M N O P Q R S T U V W X Y Z

Misc Soundtrack - Legend - Unicorn tab

Artist: Tangerine Dream
Song: Unicorn Theme
Tuning: Standard (EADGBe)
Tabber: Dan Fallows (Sick of you)

This song was off the film 'Legend'

Intro
e|--------------------------|
B|--5~--8~----------6~------|
G|----------7~--5~------4~--| x2
D|--------------------------| 
A|--------------------------|
E|--------------------------|

e|-----------------------------|
B|--5~--8~----------6~--5~-----|
G|----------7~--5~---------7~--| x1
D|-----------------------------|
A|-----------------------------|
E|-----------------------------|

e|-----------------------------|
B|--5~--8~----------6~-----8~--|
G|----------7~--5~------9~-----| x1
D|-----------------------------|
A|-----------------------------|
E|-----------------------------|

e|--------------------------------|
B|--5~--8~------9~--9~--11~--11~--|
G|----------7~--------------------| Repeat until song finishes 
D|--------------------------------|
A|--------------------------------|
E|--------------------------------|
Tap to rate this tab
# A B C D E F G H I J K L M N O P Q R S T U V W X Y Z