Song name
# A B C D E F G H I J K L M N O P Q R S T U V W X Y Z

Misc Soundtrack - Godspell - Day By Day tab

Okay so this is a pretty easy song.

E-----------------------------------------------------|
B-----------------------------------------------------|
G----6---2---4------6---2---4-------4----9---6--------|
D-----------------------------------------------------|
A-----------------------------------------------------|
E-----------------------------------------------------|

E-----------------------------------------------------|
B-----------------------------------------------------|
G---2---4---2---4---------4----7----7----9---6---4----|
D-----------------------------------------------------|
A-----------------------------------------------------|
E-----------------------------------------------------|

E-----------------------------------------------------|
B-----------------------------------------------------|
G----7---7---9---6---4-------5---4---5---7---4--------|
D-----------------------------------------------------|
A-----------------------------------------------------|
E-----------------------------------------------------|

E-----------------------------------------------------|
B-----------------------------------------------------|
G----0-----2-----0----2-------------------------------|
D-----------------------------------------------------|
A-----------------------------------------------------|
E-----------------------------------------------------|


Thats it, just play through the whole song.
Tap to rate this tab
# A B C D E F G H I J K L M N O P Q R S T U V W X Y Z