Song name
# A B C D E F G H I J K L M N O P Q R S T U V W X Y Z

Misc Television - Sadgasm - Margerine tab

this is nearly perfect theres still some parts that need work but heres the idea.
i cant believe noone has tabbed this yet. Homer rules!!!

with good distortion but not too crazy.

pour yellow gunk on my pancake heart....
|-------------------------------------------------------|(x4)
|-------------------------------------------------------|
|-----------------7-7-7-7-7-7-7-4-5-5-5-5-5-5-5-0-------|
|-5-5-5-5-5-5-5-0-7-7-7-7-7-7-7-4-5-5-5-5-5-5-5-0-5-x-5-|
|-5-5-5-5-5-5-5-0-5-5-5-5-5-5-5-2-3-3-3-3-3-3-3-0-5-x-5-|
|-3-3-3-3-3-3-3-0---------------------------------3-x-3-|

i cant believe your not mine..
|---------------------------------------------------------------------|(x2)
|-------------------------------------------------------------------------|
|-5-5-5-5-5-5-5-5-9-9-9-9-9-9-9-9-12-12-12-12-12-12-12-12-7-7-7-7-7-7-7-7-|
|-5-5-5-5-5-5-5-5-9-9-9-9-9-9-9-9-12-12-12-12-12-12-12-12-7-7-7-7-7-7-7-7-|
|-3-3-3-3-3-3-3-3-7-7-7-7-7-7-7-7-10-10-10-10-10-10-10-10-5-5-5-5-5-5-5-5-|
|-------------------------------------------------------------------------|

margerine! margerine!

|---------------------------------|(x5)
|---------------------------------|
|-----------------5-5-5-5-7-7-7-7-|
|-5-5-5-5-5-5-5-0-5-5-5-5-7-7-7-7-|
|-5-5-5-5-5-5-5-0-3-3-3-3-5-5-5-5-|
|-3-3-3-3-3-3-3-0-----------------|

if you cant find the song theres a few videos of it on youtube.
Tap to rate this tab
 
# A B C D E F G H I J K L M N O P Q R S T U V W X Y Z