Song name
# A B C D E F G H I J K L M N O P Q R S T U V W X Y Z

Misc Television - Family Guy - Noble Indian Chief tab

its real easy to play, and now you can learn without having to download guitar pro

Just a few chords of what Peter plays...

Am Em G F

the other part the Lois (supposedly) plays (which isn't really on guitar but can be 
on one) is...

E|----12-------12-------12---------10-------10-------10-----------|
B|-------13-------13-------13---------12-------12-------12--------|
G|----------14-------14-------14---------12-------12-------12-----|
D|----------------------------------------------------------------|
A|----------------------------------------------------------------|
E|----------------------------------------------------------------|


E|----10-------10-------10---------8--------8-------8-------------|
B|-------12-------12-------12---------10------10------10----------|
G|----------12-------12-------12---------10------10------10-------|
D|----------------------------------------------------------------|
A|----------------------------------------------------------------|
E|----------------------------------------------------------------|

strum fast at the end (like in the song) and as you do that do this...


E|-----12--17-----10--15-----10--15------8--13-----------------------|
B|-----13--13-----12--12-----12--12-----10--10-----------------------|
G|-----14--14-----12--12-----12--12-----10--10-----------------------|
D|-------------------------------------------------------------------|
A|-------------------------------------------------------------------|
E|-------------------------------------------------------------------|

^ that probably makes no sense since i'm new to tabbing but you should be able to figure 
you will know what I mean when you get it

hope this helps, pm me if you have any trouble
Tap to rate this tab
 
# A B C D E F G H I J K L M N O P Q R S T U V W X Y Z