Song name
# A B C D E F G H I J K L M N O P Q R S T U V W X Y Z

Misc Television - John Mayer - Vw Advert tab

e|-3---/15-6-/3-3--------------/15-6-/3-3------------------------------------|
B|-3-------------6p3---3-3----------------6p-3---3-3-------------------------|
G|-0-----------------5---3---------------------5---3-------------------------|
D|-0-----------------------5-3-----------------------5-3---------------------|
A|-2-------------------------------------------------------------------------|
E|-3-------------------------------------------------------------------------|

e|-/15-6-3-3-------14-15-17bu18---19bu21--17--15-----------------------------|
B|-----------6p3---------------------------------/13--13---------------------|
G|---------------5---------------------------------------12-------WA WA-WA---|
D|-----------------------------------------------------------------bit-------|
A|---------------------------------------------------------------------------|
E|---------------------------------------------------------------------------|

e|------10bu12-10-8-10-------------------------------------------------------|
B|----8---------------10bu12-8---------3-------------------------------------|
G|-/9---------------------------5--3-5---3-----------------------------------|
D|-----------------------------------------5---------------3-3---------------|
A|-------------------------------------------3---3--5----------5p3-----------|
E|---------------------------------------------6------6--3---------5-3/1-----|
 Slide on car door
e|--x---------------------x---------------------10bu--etc--------------------|
B|--x---------------------x------------------8-------------------------------|
G|--x-----3---------------x---------------/9---------------------------------|
D|--x-------5p3-----------x--3h5p3h5p3h5-------------------------------------|
A|--x-----------5p3----------------------------------------------------------|
E|--x---------------6--------------------------------------------------------|
Tap to rate this tab
# A B C D E F G H I J K L M N O P Q R S T U V W X Y Z