Song name
# A B C D E F G H I J K L M N O P Q R S T U V W X Y Z

Misc Television - Bold And The Beautiful Theme tab

E-12--12--------------------------------------------|
B---12--15-14-10s12-12-14-15-14-10-12-10------------|
G----------------------------------------12-14-12---|
D---------------------------------------------------|
A---------------------------------------------------|
E---------------------------------------------------|

E-12--12--------------------------------------------|
B---12--15-14-10s12-12-14-15-14-10-12-10-------12---|
G----------------------------------------12-14b-----|
D---------------------------------------------------|
A---------------------------------------------------|
E---------------------------------------------------|

E-12--12--------------------------------------------|
B---12--15-14-10s12-12-14-15-14-10-12-10------------|
G----------------------------------------12-14-12---|
D---------------------------------------------------|
A---------------------------------------------------|
E---------------------------------------------------|

E-12--12--------------------------------------------|
B---12--15-14-10s12-12-14-15------------------------|
D---------------------------------------------------|
A---------------------------------------------------|
E---------------------------------------------------| 

 
Tap to rate this tab
 
# A B C D E F G H I J K L M N O P Q R S T U V W X Y Z