Song name
# A B C D E F G H I J K L M N O P Q R S T U V W X Y Z

Misc Television - Andy Griffith tab

From: james@raveup.b24a.ingr.com (Teddie James)


Andy Griffith

E|-----|-----|-----|-----|-----|-----|-----|-----|-----|-----|-----|----
B|-----|-----|-----|-----|-----|-----|-----|-----|-----|-----|-----|----
G|-----|-----|-----|--2--|--0--|-----|-----|--2--|--0--|-----|-----|----
D|-----|-----|--0--|-----|-----|--4--|--0--|-----|-----|--4--|--0--|----
A|--0--|--2--|-----|-----|-----|-----|-----|-----|-----|-----|-----|----
E|-----|-----|-----|-----|-----|-----|-----|-----|-----|-----|-----|----

E|-----|-----|-----|-----|-----|-----|-----|-----|-----|-----|-----|----
B|-----|-----|-----|-----|-----|-----|-----|-----|-----|-----|-----|----
G|-----|-----|-----|-----|-----|-----|-----|-----|-----|-----|-----|----
D|-----|--0--|--4--|--0--|--2--|-----|-----|-----|-----|-----|-----|----
A|--2--|-----|-----|-----|-----|-----|-----|-----|-----|-----|-----|----
E|-----|-----|-----|-----|-----|-----|-----|-----|-----|-----|-----|----

Or at least part of it.
Tap to rate this tab
# A B C D E F G H I J K L M N O P Q R S T U V W X Y Z