Song name
# A B C D E F G H I J K L M N O P Q R S T U V W X Y Z

Misc Television - Batman Theme tab

e|--------------------------------------------------------------------------|
b|--------------------------------------------------------------------------|
g|--------------------------------------------------------------------------|
d|--------------------------------------------------------------------------|
a|-----7-7-6-6-5-5-6-6-7-7-6-6-5-5-6-6-7-7-6-6-5-5-6-6-7-7-6-6-5-5-6-6------|
E|-----5-5-4-4-3-3-4-4-5-5-4-4-3-3-4-4-5-5-4-4-3-3-4-4-5-5-4-4-3-3-4-4------|

e|---------------------------------------------------------------------------|
b|---------------------------------------------------------------------------|
g|---------------------------------------------------------------------------|
d|-7-7-6-6-5-5-6-6-7-7-6-6-5-5-6-6---------------------------------9-9-8-8---|
a|-5-5-4-4-3-3-4-4-5-5-4-4-3-3-4-4-7-7-6-6-5-5-6-6-7-7-6-6-5-5-6-6-7-7-6-6---|
E|---------------------------------5-5-4-4-3-3-4-4-5-5-4-4-3-3-4-4-----------|

e|--------------------------------------------------------------------------|
b|--------------------------------------------------------------------------|
g|--------------------------------------------------------------------------|
d|7-7-8-8-7-7-6-6-5-5-------------------------------------------------------|
a|5-5-6-6-5-5-4-4-3-3-4-4-7-7-6-6-5-5-6-6-7-7-6-6-5-5-6-6-------------------|
E|------------------------5-5-4-4-3-3-4-4-5-5-4-4-3-3-4-4-------------------|


This is my first tab and i know its right because its what got taught by a pro so dont 
and theyre power cords btw if your a bit like me n cant really tell lol.
Tap to rate this tab
# A B C D E F G H I J K L M N O P Q R S T U V W X Y Z