Song name
# A B C D E F G H I J K L M N O P Q R S T U V W X Y Z

Misc Television - Inside tab

Okey i'm gonna make a tab that is to me correctly!


E-------------------------------------------------->------1h0--------<
B---------0h1-------------0h1-------------0h1------>----3-----3------<
G-------2-----2---------0-----0---------0-----0---->--2---------2----<
D-----2---------2-----0---------0-----2---------2-->0-------------0--<
A---0-------------0-2-------------2-3-------------3>-----------------<
E-------------------------------------------------->-----------------<
 Every other time its switch between theese two last ones.
>-----------------<
>--------0--------<
>------1---1------<
>----2-------2----<
>--2-----------2--<
>0----------------<
Tap to rate this tab
# A B C D E F G H I J K L M N O P Q R S T U V W X Y Z