Song name
# A B C D E F G H I J K L M N O P Q R S T U V W X Y Z

Misc Television - Inspector Gadget tab

This should be 100% correct


e:-------------------------------------------------------|
b:-------------------------------------------------------|
g:-------------------------------------------------------|
d:-------------------------------------------------------|
a:-------------5--7-----6-----5--------------------------|
E:----5--7--8--------8-----7-----8-----------------------|

e:-------------------------------------------------------|
b:-------------------------------------------------------|
g:-------------------------------------------------------|
d:------------------8--6---------------------------------|
a:-------------5--7--------------------------------------|
E:----5--7--8--------------------------------------------|

e:-------------------------------------------------------|
b:-------------------------------------------------------|
g:-------------------------------------------------------|
d:-------------------------------------------------------|
a:-------------5--7-----6-----5--------------------------|
E:----5--7--8--------8-----7-----8-----------------------|

e:-------------------------------------------------------|
b:-------------------------------------------------------|
g:-------------------------------------------------------|
d:-------------------------------------------------------|
a:-------------------------------------------------------|
E:--5--4--3--2--1~----1/5--------------------------------|
Tap to rate this tab
# A B C D E F G H I J K L M N O P Q R S T U V W X Y Z