Song name
# A B C D E F G H I J K L M N O P Q R S T U V W X Y Z

Misc Television - Linus & Lucy tab

Help us improve GuitareTab! Take a short survey!
~From: juska@oasys.dt.navy.mil (Thomas Juska)

Here's my arrangement of Linus & Lucy, the theme to Peanuts.

 4 & | 1 & 2 & 3 & 4 & | 1 & 2 & 3 & 4 & | 1 & 2 & 3 & 4 & |
E----|-----------------|-----------------|-----------------|
B----|-----0---0-------|-----------------|-----0---0-------|
G--0-|---2-------2-0---|-2-----0-------0-|---2-------------|
D----|-----0-------0---|---0-2---0-2-----|-----0-------0---|
A----|-----------------|-----------------|-----------------|
E----|-3-------3-------|-3-----3---------|-3-------3-----3-|

     | 1 & 2 & 3 & 4 & | 1 & 2 & 3 & 4 & | 1 & 2 & 3 & 4 & |
E----|-----------------|-----------------|-----------------|
B----|-----------------|-----0---0-------|-----------------|
G----|---------------0-|---2-------2-0---|-2-----0---------|
D----|---0-2---0-2-----|-----0-------0---|---0-2---0-2-----|
A----|-----------------|-----------------|-----------------|
E----|-------3---------|-3-------3-------|-3-----3---------|

 _   | 1 & 2 & 3 & 4 & | 1 & 2 & 3 & 4 & | 1 & 2 & 3 & 4 & |
E----|-----------------|-----------------|-----------------|
B----|-----------------|-----------------|-----0---0-------|
G----|-0-----2-2-------|---------------0-|---2-------2-0---|
D----|-----0-------0---|---0-2---0-2-----|-----0-------0---|
A----|-----------------|-----------------|-----------------|
E----|-1-------1-----1-|-------1---------|-3-------3-------|

     | 1 & 2 & 3 & 4 & | 1 & 2 & 3 & 4 & | 1 & 2 & 3 & 4 & |
E----|-----------------|-----------------|-----------------|
B----|-----------------|-----0---0-------|---------------0-|
G----|-2-----0-------0-|---2-------------|-----------------|
D----|---0-2---0-2-----|-----0-------0---|---0-2---0-2---0-|
A----|-----------------|-----------------|---------------0-|
E----|-3-----3---------|-3-------3-----3-|-------3---------|

     | 1 & 2 & 3 & 4 & | 1 & 2 & 3 & 4 & | 1 & 2 & 3 & 4 & |
E----|-----------3-3-3-|-3-3-3-3-3-3-3---|-----------3-3-3-|
B----|-1H1-1-3---3-5-5-|-3-5-5-3-5-5-3-0-|-1-1-1-3---3-5-5-|
G----|-----------------|-----------------|-----------------|
D----|-2H2-2-4---------|---------------0-|-2-2-2-4---------|
A----|-3H3-3-5---------|---------------0-|-3-3-3-5---------|
E----|-----------------|-----------------|-----------------|

     | 1.&.2.&.3.&.4.& | 1 & 2 & 3 & 4 & | 1 & 2 & 3 & 4 & |
E----|-3-3-3-3-3-3-3---|-----------3-3-3-|-3-3-3-3-3-3-3---|
B----|-3-5-5-3-5-5-3-0-|-1-1-1-3---3-5-5-|-3-5-5-3-5-5-3---|
G----|-----------------|-----------------|-----------------|
D----|---------------0-|-2-2-2-4---------|-----------------|
A----|---------------0-|-3-3-3-5---------|-----------------|
E----|-----------------|-----------------|-----------------|



That's all I've done so far.  It's pretty easy except for the signature
syncopated base line, which must be played with the thumb.  If you're
not used to rolling your base, like Arthur Blake, you might find that
part needs practice.  You'll notice that I put the syncopated base in
measure 2 (and 6).  It should be there, and it's not to hard because
the melody isn't doing much in measures 2 and 6, but just alternate
the base at first if you have trouble.  I hope somebody enjoys this
piece.  Oddly, it's one of the few tunes I play that my 2 year old daughter
will dance to.

TJ
-------
Related for Linus & Lucy tab