Song name
# A B C D E F G H I J K L M N O P Q R S T U V W X Y Z

Misc Television - Robin tab

Robin By Tommy Emmanuel
Ill Be Adding To this As i Work It Out
Capo On 2nd Fret
Tuning:EADGBE
E--0-0-----------------------------|
B--0-0-----------------------------|
G--4-4----4--4--4--4--4--4--4--4---|
D--4-4---4--4--4--4--4--4--4--4----|
A--2-2--2--0-----0--2--0-----0-----|
E-------------2-----------2--------|
    Pm--|              v
E------------2h4h5p4p2h4----2h4----------0------0h2p0---------|
B------0------------------------4-------4--4----------2h4p2---|
G-----1--------------------------------4----4-----------------|
D----2--------------------------------2------2----------------|
A---2---------------------------------------------------------|
E-----------------------------------4---------4---------------|
Tap to rate this tab
# A B C D E F G H I J K L M N O P Q R S T U V W X Y Z