Guitaretab - guitar tabs
Song name
# A B C D E F G H I J K L M N O P Q R S T U V W X Y Z

Misc Television - Simon & Simon tab

From: gbowerma@acs.ucalgary.ca

"Simon and Simon" theme, composer : ?

OK, here it is.  I don't have a recording of 
it handy (who would/could) but my pornographic memory 
recalls it being something like :

-------------|------------|------------|------------|
-------------|------------|------------|------------|
-2-2---------|-2-2--------|-2-2--------|-2----------|
-0-0-4--2-2-4|-0-0-4-2-2-4|-0-0-4-2-2-4|-0----------| 
-----2--0-0-2|-----2-0-0-2|-----2-0-0-2|------------|
-------------|------------|------------|------------| 

Or any D-Bm-A kind of thing you wish to substitute,
and then the nice part :

----------10-|------------|-------------------------|
-------10----|-------10---|-----10-12^13-10---------|
-10H11-------|-10H11------|10H11--------------------|
-------------|----------12|-------------------------| 
-------------|------------|-------------------------|
-------------|------------|-------------------------| 

--------------------------|------------|------------|
-10-12-10-----------------|------------|------------|
----------11--------------|------------|------------|
-------------12-----------|------------|------------| 
--------------------------|------------|------------|
--------------------------|------------|------------| 

(forgive the funny layout.)

You're on your own for the sax break. I'm not sure if
that hammer should be a bend - would be a bit tougher
that way.

Blind Squirrel Bowerman
[ Tab from: http://www.guitaretab.com/m/misc-television/12491.html ]
Related for Simon & Simon tab
Simon & Simon chords by Misc Television