Song name
# A B C D E F G H I J K L M N O P Q R S T U V W X Y Z

Misc Television - Waynes World Theme tab

|---------------------------------|
|---------------------------------|
|---------------------------------|
|-2-2-2-2-2-2-2-2-2-2-2-2-2-2-2-2-|
|-2-2-2-2-2-2-2-2-2-2-2-2-2-2-2-2-|
|-0-0-0-0-0-0-0-0-0-0-0-0-0-0-0-0-|

 hold++++|hold+++++|hold++++|hold++++|
|-12-------12-------12-------12------|
|-15b16r15-15b16r15-15b16r15-15b16r15|
|------------------------------------|
|------------------------------------|
|------------------------------------|
|------------------------------------|

|------------------------------------|
|------------------------------------|
|------------------------------------|
|------------------------------------|
|-xxxxxxxxxxxxxx---------------------|
|----------------xxxxxxxxxxxxxxxxxxx-|
Pick slides
Tap to rate this tab
 
# A B C D E F G H I J K L M N O P Q R S T U V W X Y Z