Song name
# A B C D E F G H I J K L M N O P Q R S T U V W X Y Z

Misc Television - Daily Show Theme tab

e---------------------------|
B---------------------------|
G---------------------------|
D---1---1-------------------|
A-2--2-4--4-2---------------|
E------------4--44-2-0------|

e---------------------------|
B---------------------------|
G---------------------------|
D---1---1-------------------|
A-2--2-4--4-2---------------|
E------------4--44-2-0-0~---|

Any questions or comments, bkowalski27@gmail.com
Tap to rate this tab
 
# A B C D E F G H I J K L M N O P Q R S T U V W X Y Z