Song name
# A B C D E F G H I J K L M N O P Q R S T U V W X Y Z

Misc Television - Tom Green Show Theme tab

E |------------------------------------------|
B |------------------------------------------|
G |-11--9--7--9--7-------11--9--7--9--7------|
D |-----------------9--------------------9---|
A |------------------------------------------|
E |------------------------------------------|
   

E |---------------------------------------------|
B |---------------------------------------------|
G |-11--9--7--9--7--9--7----11--9--7--9--7------|
D |-----------------------------------------9---|
A |---------------------------------------------|
E |---------------------------------------------|


Yup..that's it, it's extremely difficult, I know, I spent DAYS trying to figure
it out O.o...anywho, have fun.
Tap to rate this tab
 
# A B C D E F G H I J K L M N O P Q R S T U V W X Y Z