Song name
# A B C D E F G H I J K L M N O P Q R S T U V W X Y Z

Misc Television - 7th Heaven Theme tab

7th Heaven theme, as performed by GRARGE!
I don't know why, but they covered the
theme song for the TV show. This is their
version. Here it is:

Intro:
e|-------------------------------------------------|
B|-------------------------------------------------|
G|--7--7--7---7--5--4----4--4h5---5---4-----2------| (guitar 1)
D|-------------------------------------------------|
A|-------------------------------------------------|
E|-------------------------------------------------||
 ||                                                ||
e|-------------------------------------------------|
B|-------------------------------------------------|
G|---------------------------5--------------7------| (guitar 2)
D|--5---------5--------------5--------------7------|
A|--5---------2--------------3--------------5------|
E|--3---------3------------------------------------||

Then it goes:
"7th heaven. When I see their happy faces smiling..."
e|--------------------------------------------------|
B|--------------------------------------------------|
G|----------------------------5------------7--------|
D|--5------------5------------5------------7--------|
A|--5------------2------------3------------5--------|
E|--3------------3----------------------------------|
   Play this thru most of the song.

Then it goes:
"Where can you go, when the world don't treat you..."
e|---------------------------------------------------|
B|---------------------------------------------------|
G|--------------9-----5-------------------------7----|
D|--------------9-----5---------5---------------7----|
A|--------------7-----3---------5---------------5----|
E|------------------------------3--------------------|

Then ends like this:
e|-------------------------|
B|-------------------------|
G|-------------------------|
D|-------------------------|
A|--/3-3--2--0-------------|
E|---------------(2)-/3----|  Also ends on a G power chord
                              played with this part.

I think the bass just plays the root not of each power chord
in this one. 

http://grarge.tripod.com/
Tap to rate this tab
# A B C D E F G H I J K L M N O P Q R S T U V W X Y Z