Song name
# A B C D E F G H I J K L M N O P Q R S T U V W X Y Z

Misc Television - The Last Of The Summer Wine Theme tab

-------------------------------------------------------------------------------
		    THE LAST OF THE SUMMER WINE - Misc Television
-------------------------------------------------------------------------------
Tabbed by: Murray Lewis
Email: minigunfiend@gmail.com

Tuning: Standard (EADGBe)

First of all play the introduction chords as arpeggi, then go into the main progression.

Intro Chords:			C F
Main Chord Progression: 	C F F C C F G C

Harmonica Part:
e|---------------|-----------------|-----------5-----|-------------|
B|-----5---6-5---|---------6-5-----|-------5-8---6---|---------8-5-|
G|---5---5-----7-|---4-5-7-----7-5-|---5-7---------7-|-5-4---------|
D|-5-------------|-5---------------|-5---------------|-----7-5-----|
A|---------------|-----------------|-----------------|-------------|
E|---------------|-----------------|-----------------|-------------|

e|---------------|-----------------|-----------5-----|-------------|
B|-----5---6-5---|---------6-5-----|-------5-8---6---|-------------|
G|---5---5-----7-|---4-5-7-----7-5-|---5-7---------7-|-5-4-----7-5-|
D|-5-------------|-5---------------|-5---------------|-----7-5-----|
A|---------------|-----------------|-----------------|-------------|
E|---------------|-----------------|-----------------|-------------|
Tap to rate this tab
# A B C D E F G H I J K L M N O P Q R S T U V W X Y Z