Song name
# A B C D E F G H I J K L M N O P Q R S T U V W X Y Z

Misc Television - Alfred Hitchcock Theme tab

   Alfred Hitchcock theme


  I was bored tonight!, I'm pretty sure its 100& correct, just get the timing 
right, ORIGINAL NAME IS:

       "Funeral March of the Marionettes"
       Author:Unknown by me


--------------------------------------------------------------|
--------------------------------------------------------------|
-------------------------3----------------------------3-------|
-------6--6--5--3--5--6-------------6--6--5--3--5--6----------|
---------------------------6------------------------------6---|
---4----------------------------4-----------------------------|

-------------------------2---0------2--6---4----2--0-------------|
------------4--2---0--4-----------4-------------------4--2--0----|
---------4-----------------------------------------------------3-|  Back to Beginning
-----------------------------------------------------------------|
-----------------------------------------------------------------|
-----4-----------------------------------------------------------|
Tap to rate this tab
# A B C D E F G H I J K L M N O P Q R S T U V W X Y Z