Guitaretab - guitar tabs
Song name
# A B C D E F G H I J K L M N O P Q R S T U V W X Y Z

Misc Television - X-men Evolution Theme tab

ThemSong: X-Men Evolution Main Theme
||---------------------------------------------------------||
||---------------------------------------------------------||
||-------12\11\9----12\11\9/16-17p16\14-----17p16\14\20----||
||-12h14---------9----------------------14-----------------||
||---------------------------------------------------------||
||---------------------------------------------------------||

||---------------------------------------------------------||
||---------------------------------------------------------||
||---------------------------------------------------------||
||-14-15-12-14h15p14-12-14-15-12-14h15p14-x2---------------||
||---------------------------------------------------------||
||---------------------------------------------------------||
[ Tab from: http://www.guitaretab.com/m/misc-television/177930.html ]
||---------------------------------------------------------||
||---------------------------------------------------------||
||---------------------------------------------------------||
||-8-8-10-10-12-12-14-14-15-17-19-21-----------------------||
||-6-6-8--8--10-10-12-12-13-15-17-19-----------------------||
||---------------------------------------------------------||

Repeat the first line here (except the last four notes)

||----------------------------12-15~~~~~~~\\\\\\\\\\\\\\\\\||
||-------------------12h14h15------------------------------||
||----------12h14h15---------------------------------------||
||-12h14h15------------------------------------------------||
||---------------------------------------------------------||
||---------------------------------------------------------||


Related for X-men Evolution Theme tab
Advertisement will be closed in 10 seconds