Song name
# A B C D E F G H I J K L M N O P Q R S T U V W X Y Z

Misc Television - Goosebumps Theme tab

I think this is a killer theme and I want to start transcribing so thought I would try 
this as it wasn't here on UG. It's not that great I know, but thought I would whack it on 
anyone who wanted to play it. Constructive criticism is welcome, thanks.

Intro:                                                        x8
E|--10-12-13-15-------------------------------------------------|
B|--------------------------------------------------------------|
G|--------------------------------------------------------------|
D|--------------------------------------------------------------|
A|--------------------------------------------------------------|
E|--------------------------------------------------------------|

 |---------------------------------20p19p17p16s15---------------|
 |--15-15--13-13--12--------------------------------------------|
 |--------------------------------------------------------------|
 |--------------------------------------------------------------|
 |--------------------------------------------------------------|
 |--------------------------------------------------------------|

 |--------------------------------------------------------------|
 |--15-15--13-13--12--------------------------------------------|
 |--------------------------------------------s15--s17--s19-----|
 |--------------------------------------------------------------|
 |--------------------------------------------------------------|
 |--------------------------------------------------------------|

 |--------------------------------------------------------------|
 |--15-15--13-13--12---------------------------15-15--13-13--12-|
 |--------------------------------------------------------------|
 |--------------------------------------------------------------|
 |--------------------------------------------------------------|
 |--------------------------------------------------------------|

 |---------------15-16-14-15--12-13-11-12--11-12-10-11--9-10-8-9|
 |--------------------------------------------------------------|
 |--------------------------------------------------------------|
 |--------------------------------------------------------------|
 |--------------------------------------------------------------|
 |--------------------------------------------------------------|
                                       ("Goosebumps")          x5
 |-----------------------------------|--10-12-13-15-------------|
 |-17-15-14--15-13-12--13-12-10------|--------------------------|
 |-----------------------------------|--------------------------|
 |-----------------------------------|--------------------------|
 |-----------------------------------|--------------------------|
 |-----------------------------------|--------------------------|
                      ("Viewer beware, you're in for a scare")
 |--------------------------------------------------------------|
 |--15-15--13-13--12--------------------------------------------|
 |--------------------------------------------------------------|
 |--------------------------------------------------------------|
 |--------------------------------------------------------------|
 |--------------------------------------------------------------|

 |-----------------------------------|--------------------------|
 |-17-15-14--15-13-12--13-12-10------|-15-15--13-13--12---------|
 |-----------------------------------|--------------------------|
 |-----------------------------------|--------------------------|
 |-----------------------------------|--------------------------|
 |-----------------------------------|--------------------------|
Tap to rate this tab
# A B C D E F G H I J K L M N O P Q R S T U V W X Y Z