Song name
# A B C D E F G H I J K L M N O P Q R S T U V W X Y Z

Misc Television - Jonathan Creek Theme tab

This is the theme to Jonathan Creek. It is actually an arrangement of Camille 
"Danse Macabre".

e|---3-3-1-1-0-0-------0-3-2-0---0-0-2--|
B|-3-------------4-4-3---------3--------|
G|--------------------------------------|
D|--------------------------------------|
A|--------------------------------------|
E|--------------------------------------|

e|----3-3-1-1-0-0-------3-6-5-2-1-2-0----|
B|-3--------------4-4-3---------------3--|
G|---------------------------------------|
D|---------------------------------------|
A|---------------------------------------|
E|---------------------------------------|
Tap to rate this tab
 
# A B C D E F G H I J K L M N O P Q R S T U V W X Y Z