Song name
# A B C D E F G H I J K L M N O P Q R S T U V W X Y Z

Misc Television - Pepsi Song tab

E-5-5-2-5-2-5-2-4---4---4------------------2---2---2----|
B-----------------5---5---5-2-2-2-5-2-5-2----5---5---5--|
G-------------------------------------------------------|
D-------------------------------------------------------|
A-------------------------------------------------------|
E-------------------------------------------------------|

E-5--5-2-5-2-5-2-4---4---4--------------------------14----14----14--------|
B------------------5---5---5--14-14-14-17-14-17-14------17----17---17-----|
G-------------------------------------------------------------------------|
D-------------------------------------------------------------------------|
A-------------------------------------------------------------------------|
E-------------------------------------------------------------------------|


E-17--17-14-17-14-17-14-16---16---16-------------------------14---14---14----|
B-------------------------17---17---17--14-14-14-17-14-17-14---17---17----17-|
G----------------------------------------------------------------------------|
D----------------------------------------------------------------------------|
A----------------------------------------------------------------------------|
E-------------------this-one-X2----------------------------------------------|
Tap to rate this tab
# A B C D E F G H I J K L M N O P Q R S T U V W X Y Z