Song name
# A B C D E F G H I J K L M N O P Q R S T U V W X Y Z

Misc Television - Sanford And Son Theme tab

This is the tightest version I have ever seen! Saw a guy play it like this on Youtube. 
http://www.youtube.com/watch?v=3_9mHQAibpI&feature=channel_page

Got this Version from this video though http://www.youtube.com/watch?v=iMLL4E5PsI0&feature=related

I'm not taking credit for this I just figured it would be easier to learn if it was 
down.

This is just how its played, watch the video to get all the rythms and stuff. What every 
do just play it real funk-kay!

e-3-3-3-3-----3-3-3-3-----------------------------------------------------|
B-3-3-3-5p3---3-3-3-5p3--3-----------------3-x-x-x-3-------3--------------|
G-0-0-0-0-----0-0-0-0----3h4----------4/2--2-x-x-x-2---2/4---4/2----------|
D-5-5-5-5-----5-5-5-5--------5~---5-5------0-x-x-x-0--------------3-4-----|
A---------------------------------------------------------------------5~--|
E-------------------------------------------------------------------------|

e-------------------7~----------------------------------------------------|
B-------------------8~-----------8~---6~---5~---3~----------4-5-6---------|
G-------5-5----3-5--7~----3h4------------------------5-4-5--3-4-5---------|
D-----2-5-5--2-3-5--9~--5-----/9---/7---/5---/3------5-4-5--1-2-3---------|
A-5-5------------------------------------------------3-2-3----------------|
E-------------------------------------------------------------------------|

e--------------------------------------------------------------|
B--------4h5--------------------------8-9-10-11B---------------|
G-5-4-5------5--6--7--8--9---9--8-9---6-7-8------8-8-8h9-------|
D-5-4-5------5--7--6--9--8---10-9-10--8-9-10-------------10----|
A-3-2-3------3--7--8--9--10--10-9-10--6-7-8--------------------|
E---------------5--6--7--8---8--7-8----------------------------|

This is just the basics of the song. Watch the video because these parts repeat and you 
see how it goes. Also feel free to put a little improvisation in it to spice it up. Have 
with this one!
Tap to rate this tab
# A B C D E F G H I J K L M N O P Q R S T U V W X Y Z