Song name
# A B C D E F G H I J K L M N O P Q R S T U V W X Y Z

Misc Television - Intel Star Tv Ad Theme tab

first tab.
this should get you started.

e--------------------------------------------------------|
a--------------------------------------------------------|
g-----------------------------7fb------------------------|
d---7--9----x----7--9----x-------------------------------|
a---5--7----x----5--7----x-------------------------------|
E---0--0----x----0--0----x-------------------------------|

e--------------------------------------------------------|
b--------------------------------------------------------|
g--------------------------------------------------------|
d---7--9----x----7--9----x----7b9r7p5--------------------|
a---5--7----x----5--7----x------------h7-----------------|
E---0--0----x----0--0----x-------------------------------|

e--------------------------------------------------------|
b--------------------------------------------------------|
g-----------------------------------7--5-----------------|
d---7--9----x----7--9----x----------7--5-----------------|
a---5--7----x----5--7----x----5--7-----------------------|
E---0--0----x----0--0----x-------------------------------|

e--------------------------------------------------------|
b--------------------------------------------------------|
g--------------------------------------------------------|
d-----------------------------------9p7/5h7p5------------|
a---------------------------------------------h7---------|
E---0--0---10---0--0---9---0-0---8-----------------------|
PM  *  *        *  *       * *
Tap to rate this tab
 
# A B C D E F G H I J K L M N O P Q R S T U V W X Y Z