Song name
# A B C D E F G H I J K L M N O P Q R S T U V W X Y Z

Misc Television - House Md - The Firing Song tab

Help us improve GuitareTab! Take a short survey!
----------------------------------------------------------------
THE FIRING SONG - on HOUSE MD
-----------------------------------------------------------------
Tabbed by: a m m a r a

Tuning: Drop D   D A D G B E

Capo 3rd Fret

This is the bass line played throughout the song:
e|---------------------------------------------------------------|
B|---------------------------------------------------------------|
G|---------------------------------------------------------------|
D|-----0-----0-----0------0--------------------------------------|
A|---------------------------------------------------------------|
D|--0-----0-----0------0-----------------------------------------|


The Riff: (don't forget to pick the bass)
e|--2-------2-------2--------------------------------------------|
B|-----3--------3-------3----5--------3-------3-------3------3---|
G|-------------------------------4--------2-------2------2------2|
D|---------------------------------------------------------------|
A|---------------------------------------------------------------|
D|--0------------------------------------------------------------|

e|---------------------------------------------------------------|
B|-----3----3----3----5--3----------3------3-----3------3--------|
G|---------------------------4---2------2-----2------2-----------|
D|---------------------------------------------------------------|
A|-0h2-----------------------------------------------------------|
D|---------------------------------------------------------------|

e|---------------------------------------------------------------|
B|-----3----3----3----5--3----------3------3-----3------3--------|
G|---------------------------4---2------2-----2------2-----------|
D|---------------------------------------------------------------|
A|-0h2-----------------------------------------------------------|
D|---------------------------------------------------------------|

e|--0-----0-----0------2---2--0----------------------------------|
B|-----2-----2-----2--------------3-----3-----3------------------|
G|-----------------------------------2-----2------2--------------|
D|---------------------------------------------------------------|
A|--0------------------0-0----0----------------------------------|
D|--------------------------------0------------------------------|

(And don't forget the bass)

This is a simple version, sounds just as awesome.

Let me know if there are any errors:
ammara.rounaq@gmail.com
Related for House Md - The Firing Song tab