Song name
# A B C D E F G H I J K L M N O P Q R S T U V W X Y Z

Misc Television - Ncis Theme tab

-----------------------------------------------------------|
-----------------------------------------------------------|
-----1----0--------------1---0---3---1----0----------------|
----------------------------------------------3------------|
--3-----------------3--------------------------------------|
-----------------------------------------------------------|

---------------------------------------------------------------|
---------------------------------------------------------------|
------------1----------0---------------------------------------|
--------------------------3---- 1----3---------1---------------|
-----4-----------------------------------1----------4-------3--|
---------------------------------------------------------------|

Tap to rate this tab
# A B C D E F G H I J K L M N O P Q R S T U V W X Y Z