Song name
# A B C D E F G H I J K L M N O P Q R S T U V W X Y Z

Misc Television - Ncis Theme tab

Tuning: Standard Ebgdae
pretty muched figured it out by ear. it's a couple octaves low but it sounds just like it.

E|-------------------------------------------------------------------------|
b|-------------------------------------------------------------------------|
g|---10-9~---10-9-12-10-9------10~-9-7----9---7-5--7757-7757---------------|
d|-8-------8--------------12-8---------10---7------7757-7757---------------|
a|-------------------------------------------------------------------------|
e|-------------------------------------------------------------------------|

E|-------------------------------------------------------------------------|
b|---------------------13h15-----------------------------------------------|
g|---10/12----10/12h14-------7757-7757-------------------------------------|
d|-8-------10----------------7757-7757-------------------------------------|
a|-------------------------------------------------------------------------|
e|-------------------------------------------------------------------------|

easy as hell guys you can vary it with pinches here and there, it sounds pretty cool. have fun.

-Steve066602

BOW!
Tap to rate this tab
 
# A B C D E F G H I J K L M N O P Q R S T U V W X Y Z