Song name
# A B C D E F G H I J K L M N O P Q R S T U V W X Y Z

Misc Television - How Not To Live Your Life Theme tab

I tried my best to listen to the tune and i think this is how it goes! I seperated the 
parts so it is easier to learn it :)
.....enjoy!

e|--------------------------------|--------------------------------|
G|--------------------------------|--------------------------------|
B|--------------------------------|--------------------------------|
D|--------5---------------5-------|--------4-----------------------|
A|----4-----4---4-----4-----4---4-|----2-----2---2-----------------|
E|--5---5-----5-----5---5-----5---|--3---3-----3-------------------|

 |--------------------------------|
 |--------------------------------|
 |--------------------------------|
 |--------0-----------------------|
 |----0-----0---0-----------------|
 |--2---2-----2-------------------|

(repeat this basically through most of the song)
Tap to rate this tab
 
# A B C D E F G H I J K L M N O P Q R S T U V W X Y Z