Song name
# A B C D E F G H I J K L M N O P Q R S T U V W X Y Z

Misc Television - Eastenders Theme tab

----------------------------- --------------------- ------------------------|
----------------------------- --------------------- ------------------------|
-------------0----2---------- --------------------- ------------------------|
-------0-2-3------------3---- --3--2---------------- -------------5---------|
---3------------------------- ----------5--3-3------ --------3------5---3---|
----------------------------- ---------------------- --3--3-----------------|

----------------------------- --------------------- ------------------------|
----------------------------- --------------------- ------------------------|
-------------0----2---------- --------------------- ------------------------|
-------0-2-3------------3---- --3--2---------------- -----2--3--5--2--0-----|
---3------------------------- ----------5--3-3------ -------------------3---|
----------------------------- ---------------------- --3--------------------|

--------------------------|
--------------------------|
--------------------------|
--------------------------|
--------------------------|
----7h--8h----------------|
Tap to rate this tab
 
# A B C D E F G H I J K L M N O P Q R S T U V W X Y Z